CARA CEPAT MELATIH KECEPATAN TANGAN

1. Posisi Jari

Posisi tangan kiri yang terbaik adalah dengan posisi "one fret per finger", artinya setiap jari (kecuali ibu jari dan jari kaki) menangani/memencet 4 fret masing-masing fret ke-1 hingga ke-4. Jika anda belum tahu apa itu fret. Fret adalah besi-besi yang digunakan untuk memisahkan nada.


Dibawah ini akan saya tunjukan mana yang disebut dengan fret. lihat gambar dibawah


Cara Melatih Kecepatan Jari Tangan Bermain Gitar

Jadi yang dinamakan fret adalah garis-garis besi yang terdapat pada gitar.

2. Teknik Up-down stroke

Dalam memetik senar baik menggunakan pick maupun kuku disarankan memakai metode "Up-down stroke" yaitu memetik kebawah dan keatas bergantian untuk tiap nada. Anda mesti melati teknik ini terus menerus sehingga mencapai kecapatan yang paling maksimal, hingga seolah jari tangan anda tampak bayang-bayangnya saja.

Ada baiknya anda melatih beberapa model petikan. Pertama, setiap petikan untuk satu nada. Kedua, setiap nada dipetik dua kali "naik dan turun". Dan ketiga, tiap kali nada tiga kali petik. Posisi tekan dan urutan tekan jari tangan kiri tetap sama.

Untuk melatih teknik Up-down stroke akan saya berikan contoh latihanya.


  • Metode chord


Agar lebih efisien wartos.co.cc menyarankan melatih jari tangan kiri dengan melodi sebuah chord. Dibawah ini saya berikan Tab untuk latihan dengan metode chord.

e|-----------------------------------------4--5---|
B|-----------------------------------5--7---------|
G|--------------------------4--6--7---------------|
D|-----------------4--6--7------------------------|
A|--------4--5--7---------------------------------|
E|---5-7------------------------------------------|

dan sebaliknya

e|---5--4-----------------------------------------|
B|---------7--5-----------------------------------|
G|---------------7--6--4--------------------------|
D|------------------------7--6--4-----------------|
A|---------------------------------7--5--4--------|
E|------------------------------------------7--5--|

Ada baiknya anda melatih beberapa model petikan. Pertama, setiap petikan untuk satu nada. Kedua, setiap nada dipetik dua kali naik dan turun. Dan ketiga, tiap nada tiga kali petik. Posisi tekan dan urutan tekan jari tangan kiri tetap sama.

Latihlah dengan metode up-down stroke dan one r fret per finger.

Jika anda belum bisa membaca tab, klik disini untuk belajar membaca tab.


  • Metode Kromatik


Kromatik merupakan nada-nada yang berjarak 1/2 nada atau satu kolom/fret dalam gitar. Jadi setiap kolom/fret dibunyikan.

Dibawah ini saya berikan contoh tab metode kromatik.

e|-----------------------------------------1-2-3-4----|
B|---------------------------------1-2-3-4------------|
G|-------------------------1-2-3-4--------------------|
D|-----------------1-2-3-4----------------------------|
A|---------1-2-3-4------------------------------------|
E|-1-2-3-4--------------------------------------------|


  • Metode Trills


Trills adalah teknik dimana dengan sekali petik, kita memperoleh begitu banyak nada yang diinginkan

Contoh : contoh paling mudah adalah dengan dua nada. Posisikan jari telunjuk pada senar ke-1 kolom/fret ke-3, Petiklah senar itu, dan kemudian tanpa memetik lagi, jari tengah anda langsung menekan senar ke-1 di kolom/fret ke-5. Kangkah berikutnya, petik lagi senar 1 dengan jari tengah anda. Jadi , jari telunjuk tetap pada posisinya sementara jari tengah berperan menyembunyikan dua nada, yaitu fret ke-5 dan ke-3.

Di bawah ini adalah tab gitar-nya.

e|----3--5-----------|
B|-------------------|
G|-------------------|
D|-------------------|
A|-------------------|
E|-------------------|

Trills adalah gabungan teknik hammer-on dan pull -off.

1 komentar:

  1. AGL - Team mengatakan...:

    Salam kenal semua...
    Bagi yg ingin mempelajari berbagai tehnik gitar secara lengkap dan mengunduh ebook pelajaran gitar untuk pemula, blues, jazz dalam bhs Indonesia, silahkan di www.gitarzoom.blogspot.com
    trimakasih

Poskan Komentar